Ursula - Tiffer main riff

(/) Slide Up  (\) Slide Down  (h) Hammer On  (p) Pull Off  (b) Bend (r) Release (v) Vibrato
E|-----2-----2-----2-----2-----3-----3-----5-----5--7--7-----7--9--12--9------
B|--3--3-----3-----2-----2-----3-----3-----5-----5--7--7-----7------------12--
G|--4--------4-----3-----3-----4-----4-----6-----6--7--7-----7----------------
D|--------------4-----------------5-----------7-----9-------------------------
A|--------2-----------------------------------------------------9-------------
E|--------------------2-----3-----------5-----------------7-------------------



E|--7--7-----7--9----------------
B|--8--8-----8--10---------------
G|--9--9-----9--11---------------
D|-------------------------------
A|--7-----7-----9----------------
E|------------------9--10--9--7--
http://www.guitartabcreator.com
Guitar Tab Creator is intended to store guitar tab created through the tool. It currently does not support in-line text editing. Any text you place in here will be lost. If you need to comment on your tab, please use the "Tab Notes" section located below.