Peter, Bjorn & John - Young Folks

(/) Slide Up  (\) Slide Down  (h) Hammer On  (p) Pull Off  (b) Bend (r) Release (v) Vibrato

Vilistamine
E|-10---10-10-10-8-8-------8---------------------------------------------
B|-------------------10-10-----10--10-10-10-8-8--------------------------
G|----------------------------------------------9---9--9-9-9-7-7-5-5---5- x2
D|-------------------------------------------------------------------7---
A|-----------------------------------------------------------------------
E|-----------------------------------------------------------------------


Vokaalid - salm
E|------------------------------------------------------------
B|------------------------------------------------------------
G|-7--7-7-7-5-5-----5--------------------9--9-9-9-7-7-5-5----- x2
D|--------------7-7-----7--7-7-7-5-5----------------------7-7-
A|-----------------------------------7------------------------
E|------------------------------------------------------------



E|------------------------------------------------------|-----------------------------------
B|------------------------------------------------------|-----------------------------------
G|-5-5---5-5-5---5-----------------9--9-9-9-7-7-5-5---5-|-5-5---5-5-5---5-------------------
D|-----7-------7-----7-7---5-7-7--------------------7---|-----7-------7-----7-7---5-7-------
A|-----------------------7------------------------------|-----------------------7-----7-----
E|------------------------------------------------------|-----------------------------------


Vokaalid - refrään
E|----------------------|---------------------------------------------------------------------
B|----------------------|--------8---------5-----------5-----------8---------5----------------
G|-9--9-9-9-7-7-5-5-----|--9-9-9---9-7-5-7-----5---5-7-------9-9-9---9-7-5-7----5---5---5-----
D|------------------7-7-|------------------------7-------5------------------------7---7---7-7-
A|----------------------|---------------------------------------------------------------------
E|----------------------|---------------------------------------------------------------------
http://www.guitartabcreator.com
Guitar Tab Creator is intended to store guitar tab created through the tool. It currently does not support in-line text editing. Any text you place in here will be lost. If you need to comment on your tab, please use the "Tab Notes" section located below.