God Finders Keepers

(/) Slide Up  (\) Slide Down  (h) Hammer On  (p) Pull Off  (b) Bend (r) Release (v) Vibrato


E|------------------------------------------------------------------------------------------
B|------------------------------------------------------------------------------------------
G|-----------------------------------------9h12p12b9\b7------------------------------------12b9-
D|-7/9----12-7/9----12-7/9----12-7/9----12--------------7/9------7/9------7/9------7/9-----------
A|-----10--------10--------10--------10---------------------10-9-----10-9-----10-9-----10-9------
E|------------------------------------------------------------------------------------------



E|------------------------------------------------------------------------
B|---------12---------12---------12---------------------------------------
G|-9h12p12----9h12p12----9h12p12------------------------------------------
D|----------------------------------12-10\9----9h10p----12-10\9----9h10p-9h10p--12-10\9---------
A|------------------------------------------10-------10---------10------------10--------10-12-7\2-
E|------------------------------------------------------------------------


* PrintPrint
* Facebook
* Google Buzz
* email tabemail tab
Guitar Tab Creator is intended to store guitar tab created through the tool. It currently does not support in-line text editing. Any text you place in here will be lost. If you need to comment on your tab, please use the "Tab Notes" section located below.