Ceremony

(/) Slide Up  (\) Slide Down  (h) Hammer On  (p) Pull Off  (b) Bend (r) Release (v) Vibrato
E|--------------------------------------------------------------
B|--------------------------------------------------------------
G|--------------------------------------------------------------
D|--------------------------------------------------------------
A|--7--7--8--7--6--6--7--6--7--7--7--7--8--7--6--6--7--6--8--8--
E|--------------------------------------------------------------



E|--------------------------0--0--0-----------------------1--1--
B|--------------------------0--0--0-----------------------1--1--
G|--------------------------1--1--1-----------------------2--2--
D|--------------------------2--2--2-----------------------3--3--
A|--------------------------2--2--2------8----------------------
E|--------------------------0--0--0-----------------------------



E|----------------------------------------------------------------
B|----------------------------------------------------------------
G|----------------------------------------------------------------
D|----------------------------------------------------------------
A|--7--7--8--7--6--6--7--6--7--7--7--7--8--7--6--6--7--6--7----7--
E|----------------------------------------------------------------



E|--0-----------------------0--0--0-----------------------0--0--0--0--
B|--0-----------------------0--0--0-----------------------0--0--0--0--
G|--1-----------------------1--1--1-----------------------1--1--1--1--
D|--2-----------------------2--2--2-----------------------2--2--2--2--
A|--2------8----------------2--2--2------8----------------2--2--2--2--
E|--0-----------------------0--0--0-----------------------0--0--0--0--



E|--------------------------------------------------------------
B|--------------------------------------------------------------
G|--------------------------------------------------------------
D|--------------------------------------------------------------
A|--7--7--8--7--6--6--7--6--7--7--7--7--8--7--6--6--7--6--8--8--
E|--------------------------------------------------------------



E|--0-----------------------0--0--0-----------------------1--1--
B|--0-----------------------0--0--0-----------------------1--1--
G|--1-----------------------1--1--1-----------------------2--2--
D|--2-----------------------2--2--2-----------------------3--3--
A|--2--7--8--7--6--6--7--6--2--2--2--7--8--7--6--6--7--6--------
E|--0-----------------------0--0--0-----------------------------



E|----------------------------------------------------------------
B|----------------------------------------------------------------
G|----------------------------------------------------------------
D|----------------------------------------------------------------
A|--7--7--8--7--6--6--7--6--7--7--7--7--8--7--6--6--7--6--7----7--
E|----------------------------------------------------------------



E|--0-----------------------0--0--0-----------------------0--0--0--0--
B|--0-----------------------0--0--0-----------------------0--0--0--0--
G|--1-----------------------1--1--1-----------------------1--1--1--1--
D|--2-----------------------2--2--2-----------------------2--2--2--2--
A|--2--7--8--7--6--6--7--6--2--2--2--7--8--7--6--6--7--6--2--2--2--2--
E|--0-----------------------0--0--0-----------------------0--0--0--0--



E|--------------------------------------------------------------------
B|--------------------------------------------------------------------
G|--------------------------------------------------------------------
D|--------------------------------------------------------------------
A|--------------------------------------------------------------------
E|--------------------------------------------------------------------



E|----------------------------------------------------------------------
B|----------------------------------------------------------------------
G|----------------------------------------------------------------------
D|----------------------------------------------------------------------
A|----------------7h20----------------------------------12--12--15--12--
E|----------------------------------------------------------------------



E|--------------------------0--0--0-----------------------------1--1--
B|--------------------------0--0--0-----------------------------1--1--
G|--------------------------1--1--1-----------------------------2--2--
D|--------------------------2--2--2-----------------------------3--3--
A|--------------------------2--2--2------8----------------------------
E|--------------------------0--0--0-----------------------------------



E|--0------------------------0--0--0---------------------------0--0--0--0-----
B|--0------------------------0--0--0---------------------------0--0--0--0-----
G|--1------------------------1--1--1---------------------------1--1--1--1-----
D|--2------------------------2--2--2---------------------------2--2--2--2-----
A|--2------------------------2--2--2---------------------------2--2--2--2-----
E|--0------------------------0--0--0------8--------------------0--0--0--0-----



E|--0------------------------0--0--0---------------------------1--1--
B|--0------------------------0--0--0---------------------------1--1--
G|--1------------------------1--1--1---------------------------2--2--
D|--2------------------------2--2--2---------------------------3--3--
A|--2------------------------2--2--2---------------------------------
E|--0------------------------0--0--0------8--------------------------



E|--------------------------------------------------------------
B|--------------------------------------------------------------
G|--------------------------------------------------------------
D|--------------------------------------------------------------
A|--7--7--8--7--6--6--7--6--7--7--7--7--8--7--6--6--7--6--8--8--
E|--------------------------------------------------------------



E|--0-----------------------0--0--0-----------------------1--1--1--
B|--0-----------------------0--0--0-----------------------1--1-----
G|--1-----------------------1--1--1-----------------------2--2-----
D|--2-----------------------2--2--2-----------------------3--3-----
A|--2------8----------------2--2--2------8-------------------------
E|--0-----------------------0--0--0--------------------------------



E|----------------------------------------------------------------
B|----------------------------------------------------------------
G|----------------------------------------------------------------
D|----------------------------------------------------------------
A|--7--7--8--7--6--6--7--6--7--7--7--7--8--7--6--6--7--6--7----7--
E|----------------------------------------------------------------



E|--0-----------------------0--0--0-----------------------0--0--0--0--
B|--0-----------------------0--0--0-----------------------0--0--0--0--
G|--1-----------------------1--1--1-----------------------1--1--1--1--
D|--2-----------------------2--2--2-----------------------2--2--2--2--
A|--2------8----------------2--2--2------8----------------2--2--2--2--
E|--0-----------------------0--0--0-----------------------0--0--0--0--



E|--
B|--
G|--
D|--
A|--
E|--
http://www.guitartabcreator.com
Guitar Tab Creator is intended to store guitar tab created through the tool. It currently does not support in-line text editing. Any text you place in here will be lost. If you need to comment on your tab, please use the "Tab Notes" section located below.