Old Pine by Ben Howard- Max Lacaze

Tuning- C,G,C,G,G,C (all tuned down) capo usually on 5th fret but sounds good on 3rd and 8th

(/)= slide down (p)= pull off

Intro

c|------7-------5-------4-------2-|-/7--------7-------5-------4-------0-|
G|----9-------7-------5-------4---|---------9-------7-------5-------4---|
G|--0-------0-------0-------0-----|-------0-------0-------0-------0-----|
C|0-------0-------0-------0-------|-----0-------0-------0-------0-------|
G|--------------------------------|-------------------------------------|
C|--------------------------------|-------------------------------------|

c|---------------------------------|----------------------------------|
G|--------5----------------5-------|---------5----------------5-------|
G|----0-----0---0------0-----0---0-|-----0-----0---0------0-----0---0-|
C|--0---0-----0------0---0-----0---|---2---2-----2------2---2-----2---|
G|2----------------2---------------|0-----------------0---------------|
C|---------------------------------|----------------------------------|

Verse 1

c|x-------------------|------------------|
G|x-------------------|------------------|
G|x-----------0-------|------------------|
C|x---4/2p0-----0---0-|--4/2p0---2p0-2p0-|
G|x---------0-----0---|--------0---------|
C|x-0-----------------|0-----------------|

c|-------------------|--------0-------|--------0-------|
G|-------------------|----------------|----------------|
G|-----------0-------|----0-----0---0-|----0-----0---0-|
C|---4/2p0-----0---0-|--0---0-----0---|--2---2-----2---|
G|---------0-----0---|2---------------|4---------------|
C|-0-----------------|----------------|----------------|

Chorus

c|0-------------|0-------------|0--------------|
G|0-------------|0-------------|0--------------|
G|0-------------|0-------------|0--------------|
C|4-------------|2-------------|4--------------|
G|5-------------|4-------------|5--------------|
C|0-------------|0-------------|0--------------|

c|0-------------|0-------------|0------------|
G|0-------------|0-------------|0------------|
G|0-------------|0-------------|0------------|
C|2-------------|4-------------|2------------|
G|4-------------|2-------------|0------------|
C|0-------------|0-------------|0------------|

Verse 2

c|-------------------|------------------|
G|-------------------|------------------|
G|-----------0-------|------------------|
C|---4/2p0-----0---0-|--4/2p0---2p0-2p0-|
G|---------0-----0---|--------0---------|
C|-0-----------------|0-----------------|

c|-------------------|--------0---0-|--------0---0-|
G|-------------------|------------0-|------------0-|
G|-----------0-------|----0-----0-0-|----0-----0-0-|
C|---4/2p0-----0---0-|--0---0-----0-|--2---2-----2-|
G|---------0-----0---|2-----------2-|4-----------4-|
C|-0-----------------|------------0-|------------0-|


c|-------------------|--------0---0-|--------0-----------0---0-|
G|-------------------|------------0-|------------------------0-|
G|-----------0-------|----0-----0-0-|----0-----0-----0-----0-0-|
C|---4/2p0-----0---0-|--0---0-----0-|--2---2-------2---2-----2-|
G|---------0-----0---|2-----------2-|4-----------4-----------4-|
C|-0-----------------|------------0-|------------------------0-|


Chorus

c|0-------------|0-------------|0--------------|
G|0-------------|0-------------|0--------------|
G|0-------------|0-------------|0--------------|
C|4-------------|2-------------|4--------------|
G|5-------------|4-------------|5--------------|
C|0-------------|0-------------|0--------------|

c|0-------------|0-------------|0------------|
G|0-------------|0-------------|0------------|
G|0-------------|0-------------|0------------|
C|2-------------|4-------------|2------------|
G|4-------------|2-------------|0------------|
C|0-------------|0-------------|0------------|



Bridge

c|0----0---0----0---0----0---7---0--|0----0---0----0---0----0-|
G|0----0---0----0---0----0---7---0--|0----0---0----0---9----7-|
G|4/5--5---4/5--5---4/5--5---5---5--|4/5--5---4/5--5---0----0-|
C|0----0---0----0---0----0---0---0--|0----0---0----0---9----7-|
G|4/5--5---4/5--5---4/5--5---5---5--|4/5--5---4/5--5---0----0-|
C|0----0---0----0---0----0---0---5--|0----0---0----0---9----7-|

Then back to verse 1 and end on strumming all open strings once.

Guitar Tab Creator is intended to store guitar tab created through the tool. It currently does not support in-line text editing. Any text you place in here will be lost. If you need to comment on your tab, please use the "Tab Notes" section located below.