My Piece (Not A Clue What To Call It)

(/) Slide Up  (\) Slide Down  (h) Hammer On  (p) Pull Off  (b) Bend (r) Release (v) Vibrato 
(:) Repeat section (12) Harmonic


INTRO

E|--------------------------|------------------------------|-----------------------------|
B|--------------7-----------|----------------8p7-----------|----------------10-----------|
G|--------7--------7-----7--|---------7-----------7-----7--|---------7----------7-----7--|
D|-----9--------------9-----|------9-----------------9-----|------7----------------7-----|
A|--------------------------|--10--------10----------------|-----------------------------|
E|--7--------7--------------|------------------------------|--10--------10---------------|

E|---------------------------|
B|--------------10-----------|
G|--------9---------9-----9-.|
D|-----7---------------7----.| (Repeat intro)
A|---------------------------|
E|--9--------9---------------|


VERSE

E|----------------0-----------|----------------(12)-----------|----------------0-----------|
B|-------------------7--------|-------------------------------|-------------------7--------|
G|---------7---------------7--|---------7------------7-----7--|---------7---------------7--|
D|------9---------------7-----|------9------------------7-----|------7---------------7-----|
A|--10--------10--------------|--10--------10-----------------|----------------------------|
E|----------------------------|-------------------------------|--10--------10--------------|

E|----------------(12)-----------|
B|-------------------------------|
G|---------7------------7-----7-.|
D|------7------------------7----.| (Repeat verse)
A|-------------------------------|
E|--10--------10-----------------|

BRIDGE

E----------------0-----------|----------------(12)-----------|-----------------0-----------|
B-------------------7--------|----------------------7-----7--|--------------------7--------|
G---------7---------------7--|---------7---------------9-----|----------7---------------7--|
D------9---------------9-----|------9------------------------|------11---------------9-----|
A--10--------10--------------|--10--------10-----------------|--12---------12--------------|
E----------------------------|-------------------------------|-----------------------------|

E-----------------(12)-----------|
B-----------------------7-----7--|
G----------7---------------9-----|
D------11------------------------|
A--12---------12-----------------|
E--------------------------------|

CHORUS

E----------------10-----------|--------------9-----------|--------------7-----------|
B--------------------7--------|-----------------7--------|-----------------7--------|
G---------7----------------7--|--------9--------------9--|--------7--------------7--|
D------7----------------7-----|-----7--------------7-----|-----9--------------9-----|
A-----------------------------|--------------------------|--------------------------|
E--10--------10---------------|--9--------9--------------|--7--------7--------------|

E--------------5-----------|
B-----------------7--------|
G--------7--------------7--|
D-----9--------------9-----|
A--------------------------|
E--7--------7--------------|

E----------------10-----------|--------------9-----------|--------------7-----------|
B--------------------7--------|-----------------7--------|-----------------7--------|
G---------7----------------7--|--------9--------------9--|--------9--------------7--|
D------7----------------7-----|-----7--------------7-----|-----7--------------9-----|
A-----------------------------|--------------------------|--------------------------|
E--10--------10---------------|--9--------9--------------|--9--------9--------------|

E--------------5-----------|
B-----------------7--------|
G--------9--------------7--|
D-----7--------------9-----|
A--------------------------|
E--9--------9--------------|

VERSE

E|----------------0-----------|----------------(12)-----------|----------------0-----------|
B|-------------------7--------|-------------------------------|-------------------7--------|
G|---------7---------------7--|---------7------------7-----7--|---------7---------------7--|
D|------9---------------7-----|------9------------------7-----|------7---------------7-----|
A|--10--------10--------------|--10--------10-----------------|----------------------------|
E|----------------------------|-------------------------------|--10--------10--------------|

E|----------------(12)-----------|
B|-------------------------------|
G|---------7------------7-----7-.|
D|------7------------------7----.| (Repeat verse)
A|-------------------------------|
E|--10--------10-----------------|

BRIDGE

E----------------0-----------|----------------(12)-----------|-----------------0-----------|
B-------------------7--------|----------------------7-----7--|--------------------7--------|
G---------7---------------7--|---------7---------------9-----|----------7---------------7--|
D------9---------------9-----|------9------------------------|------11---------------9-----|
A--10--------10--------------|--10--------10-----------------|--12---------12--------------|
E----------------------------|-------------------------------|-----------------------------|

E-----------------(12)-----------|
B-----------------------7-----7--|
G----------7---------------9-----|
D------11------------------------|
A--12---------12-----------------|
E--------------------------------|

CHORUS

E----------------10-----------|--------------9-----------|--------------7-----------|
B--------------------7--------|-----------------7--------|-----------------7--------|
G---------7----------------7--|--------9--------------9--|--------7--------------7--|
D------7----------------7-----|-----7--------------7-----|-----9--------------9-----|
A-----------------------------|--------------------------|--------------------------|
E--10--------10---------------|--9--------9--------------|--7--------7--------------|

E--------------5-----------|
B-----------------7--------|
G--------7--------------7--|
D-----9--------------9-----|
A--------------------------|
E--7--------7--------------|

E----------------10-----------|--------------9-----------|--------------7-----------|
B--------------------7--------|-----------------7--------|-----------------7--------|
G---------7----------------7--|--------9--------------9--|--------9--------------7--|
D------7----------------7-----|-----7--------------7-----|-----7--------------9-----|
A-----------------------------|--------------------------|--------------------------|
E--10--------10---------------|--9--------9--------------|--9--------9--------------|

E--------------5-----------|
B-----------------7--------|
G--------9--------------7--|
D-----7--------------9-----|
A--------------------------|
E--9--------9--------------|

OUTRO

E-----------------0--------------|-----------------0---------------|
B---------10---------10------10--|---------10----------10------10--|
G------7------------------7------|------7------------------7-------|
D--------------------------------|---------------------------------|
A--------------------------------|---------------------------------|
E--10---------10-----------------|--10---------10------------------|

E-----------------0--------------|-----------------0---------------|
B---------10---------10------10--|---------10----------10------10--|
G------7------------------7------|------7------------------7-------|
D--------------------------------|---------------------------------|
A--------------------------------|---------------------------------|
E--9----------9------------------|--9----------9-------------------|

E-----------------0--------------|-----------------0---------------|
B---------10---------10------10--|---------10----------10------10--|
G------7------------------7------|------7------------------7-------|
D--------------------------------|---------------------------------|
A--------------------------------|---------------------------------|
E--7----------7------------------|--7----------7-------------------|

E-----------------0--------------|-----------------0---------------|
B---------10---------10------10--|---------10----------10------10--|
G------7------------------7------|------7------------------7------.|
D--------------------------------|--------------------------------.| (Repeat first 8 bars of outro)
A--------------------------------|---------------------------------|
E--9----------9------------------|--9----------9-------------------|

E-------------------10--|
B---------------10------|
G------------7----------|
D---------7-------------|
A------9----------------|
E--10-------------------|

TABBED BY MAX LACAZE
Guitar Tab Creator is intended to store guitar tab created through the tool. It currently does not support in-line text editing. Any text you place in here will be lost. If you need to comment on your tab, please use the "Tab Notes" section located below.