Jazz die erste

(/) Slide Up  (\) Slide Down  (h) Hammer On  (p) Pull Off  (b) Bend (r) Release (v) Vibrato

E|--------------------------------------------------------------------------------------------------------
B|--------------------------------------------------------------------------------------------------------
G|--------8--8-----8-----8--8-----8-----6--6-----6-----6--6-----6--7--------6--------5--------4-----------
D|--------7--7-----7-----7--7-----7-----5--5-----5-----5--5-----5-----6--------5--------4--------3--------
A|--------6--6-----6-----6--6-----6-----4--4-----4-----4--4-----4--------7--------6--------5--------4-----
E|--7--7--7--7--7--7--7--7--7--7--7--5--5--5--5--5--5--5--5--5--5-----------------------------------------



E|--------------------------------------------------
B|--------------------------------------------------
G|--------4--4-----4-----4--3--3--3--3--2--2--2--2--
D|--------3--3-----3-----3--2--2--2--2--1--1--1--1--
A|--------2--2-----2-----2--1--1--1--1--0--0--0--0--
E|--3--3--3--3--3--3--3--3--2--2--2--2--1--1--1--1--
http://www.guitartabcreator.com
Guitar Tab Creator is intended to store guitar tab created through the tool. It currently does not support in-line text editing. Any text you place in here will be lost. If you need to comment on your tab, please use the "Tab Notes" section located below.