song 2

(/) Slide Up  (\) Slide Down  (h) Hammer On  (p) Pull Off  (b) Bend (r) Release (v) Vibrato


E|-----7-----7-----7-----7--10--------10--7--------7-----7-----7-----7-----7--10--------10--7-----
B|--------7-----------7---------7------------7--------------7-----------7---------7---------------
G|--------------7------------------7------------7-----------------7------------------7------------
D|--9-----------------------9-------------9-----------8-----------------------8-------------8-----
A|------------------------------------------------------------------------------------------------
E|------------------------------------------------------------------------------------------------



E|--------7-----7-----7-----7-----7--10--------10--7--------7-----7-----7-----7-----7--10--------
B|--7--------------7-----------7---------7------------7--------------7-----------7---------7-----
G|-----7-----------------7------------------7------------7-----------------7------------------7--
D|-----------7-----------------------7-------------7-----------6-----------------------6---------
A|-----------------------------------------------------------------------------------------------
E|-----------------------------------------------------------------------------------------------



E|--10--7--------7-----7-----7-----7-----7--10--------10--7--
B|---------7--------------7-----------7---------7------------
G|------------7-----------------7------------------7---------
D|------6-----------5-----------------------5-------------5--
A|-----------------------------------------------------------
E|-----------------------------------------------------------
http://www.guitartabcreator.com
Guitar Tab Creator is intended to store guitar tab created through the tool. It currently does not support in-line text editing. Any text you place in here will be lost. If you need to comment on your tab, please use the "Tab Notes" section located below.