Pink Floyd - David Gilmour - Echoes - Live in Gdansk SOLO Version

(/) Slide Up  (\) Slide Down  (h) Hammer On  (p) Pull Off  (b) Bend (r) Release (v) Vibrato
E|----------------------------------------------------------------------------------------
B|----------------------------12--12--12--------------------------------------------------
G|--6------b11--11--9----b11--------------11b----11r11--9--11--11--9--11-----9--11b11-----
D|--6-------------------------------------------------------------------/11---------------
A|--4-------------------------------------------------------------------------------------
E|----------------------------------------------------------------------------------------



E|-----------------------9-11b12r11p9-11p9------------------------------------------------
B|-13-----------------/9-------------------12p9----12p9-----------------------------------
G|----11b13r11v---------------------------------11------11-9-11b13r11-9-11-9-8-9p8-9p8----
D|----------------------------------------------------------------------------------------
A|----------------------------------------------------------------------------------------
E|----------------------------------------------------------------------------------------



E|---------------------------------------------9-11b13------9-11b13r11p9-11---------------
B|------------------------------------------/9------------9-------------------------------
G|-6-8-8b9r8p6\4-6-4-----4----------------------------------------------------------------
D|-------------------4-6---6-6v-----------------------------------------------------------
A|----------------------------------------------------------------------------------------
E|----------------------------------------------------------------------------------------



E|-11b13r11p9-11-9----------------------------------------------------------------------
B|----------------------7-9-9b10v--7-9-9b10r9p7-9-9b10r9p7-9/9b10v----------------------
G|--------------------------------------------------------------------------------------
D|--------------------------------------------------------------------------------------
A|--------------------------------------------------------------------------------------
E|--------------------------------------------------------------------------------------



E|---------------9-12p9------------------9-12p9----------9-12p9-12b14--9-14r12-9-12p9----
B|-12b14v-b14v----------12b14v-----12b14--------12b14v--------------------------------12-
G|---------------------------------------------------------------------------------------
D|---------------------------------------------------------------------------------------
A|---------------------------------------------------------------------------------------
E|---------------------------------------------------------------------------------------



E|-------------------------------------------------------------------------------------
B|-12-9-12b14-14r12-9--------------------------12-9------------------------------------
G|--------------------11b13-9-11b13-11-9------------11-11b13-13r11-9-------------------
D|-------------------------------------------------------------------11-11-------------
A|-------------------------------------------------------------------------------------
E|-------------------------------------------------------------------------------------



E|------------------------------------------11b12b14b15v-----14-16r14-12-14-12h14p--
B|----------------------------------------------------------------------------------
G|---9---11b13----13r11-9----9-11---------------------------------------------------
D|-9---9------------------11--------------------------------------------------------
A|----------------------------------------------------------------------------------
E|----------------------------------------------------------------------------------



E|---------------------------------------------------------9-11b12--12r11v--11v--11b12b12-
B|-14b17r14-12-14v--------------------------------------/9--------------------------------
G|-------------------------9-11-11b13r11--13r11p9-11--------------------------------------
D|---------------------/11----------------------------------------------------------------
A|----------------------------------------------------------------------------------------
E|----------------------------------------------------------------------------------------
http://www.guitartabcreator.com
Guitar Tab Creator is intended to store guitar tab created through the tool. It currently does not support in-line text editing. Any text you place in here will be lost. If you need to comment on your tab, please use the "Tab Notes" section located below.