Pink Floyd - David Gilmour - Echoes - Live in Gdansk OUTRO Solo

(/) Slide Up  (\) Slide Down  (h) Hammer On  (p) Pull Off  (b) Bend (r) Release (v) Vibrato
E|-----------------------------------------------------------------------------------------------
B|-5--4-----1--4-------------------9----------12b14-12----9v-------------------------------------
G|-6--4-4---1--5-----------9-11b13---11-9--------------11----11b13-11-9----9-11-11b13-11p9-11v---
D|-6--6---6-3--6-------/11----------------11----------------------------11-----------------------
A|-4--6-----3--6---------------------------------------------------------------------------------
E|----4-----1--4---------------------------------------------------------------------------------



E|---------------------------------------------------------------------------------------------
B|-------12-----------------------------------------------------------------12-12-12/14\9v-----
G|-11b13----11v---11b13-11-9------------------------------9------------------------------------
D|---------------------------11-9-----------------------9---11--11v--9-------------------------
A|--------------------------------11\9-7-9-7v-------/11----------------------------------------
E|---------------------------------------------------------------------------------------------



E|--------------------------------------------12p11----------------------------9-9-9-----
B|--------------------------------------------------12-9---------------------------------
G|-11b13-11-9-11b13v----13r11-13r11v-9-------------------9-8-----8-8/9\8/9\6v--6-6-6-----
D|-------------------------------------11------------------------------------------------
A|---------------------------------------------------------------------------------------
E|---------------------------------------------------------------------------------------



E|-9-9-9/11------9-11-12/16\9----9-11-12/16\9------9-11-12/16-16--------16b17-16-14v-----------
B|---------------------------------------------------------------------------------------------
G|-6-6-6-8-v-----------------------------------------------------------------------------------
D|---------------------------------------------------------------------------------------------
A|---------------------------------------------------------------------------------------------
E|---------------------------------------------------------------------------------------------



E|----------------------------------------------------------------9---------------------------
B|-12v-----12-------9-------------------------------------------9---12------------------------
G|------------11b13---9-----------------9----9------------11b13--------11b13-11v--------------
D|----------------------11-9-9v----------------11p9-11v---------------------------------------
A|-----------------------------------11---11--------------------------------------------------
E|--------------------------------------------------------------------------------------------



E|-9-12b14-11b12---------------12-14b16-----16r14---16r14-16r14-16r14-16r14-16r14-16r14p12---
B|---------------12b14v-----14---------------------------------------------------------------
G|-------------------------------------------------------------------------------------------
D|-------------------------------------------------------------------------------------------
A|-------------------------------------------------------------------------------------------
E|-------------------------------------------------------------------------------------------



E|---------------------------9----9-11-12/16\9-----9-12-11-9-------------------------------
B|-14-12-14b17v-r14------------------------------------------12/14v-----------9-12-9-------
G|------------------13v-------------------------------------------------11b13--------11b13-
D|-----------------------------------------------------------------------------------------
A|-----------------------------------------------------------------------------------------
E|-----------------------------------------------------------------------------------------



E|-----------------------------------------------------------------------------------------
B|-----------------------------------------------------------------------------------------
G|-13r11-9----------------9-9-9-9-9-8----8-8-8-8-8-8-6----6/8-6-6-4----6-8-9---------------
D|---------11-9----------------------------------------------------------------------------
A|--------------11-9\7----7-7-7-7-7-6----6-6-6-6-6-6-4----4-6-4-4-2----4-6-7---------------
E|-----------------------------------------------------------------------------------------



E|-12p11-9---------------------------------------------------------------------------------
B|---------12-9v------12b14r12-9-12-9--12p9------------------------------------------------
G|-------------------------------------------------9-11b13r11-9-11b13v---13r11-9----9------
D|----------------------------------------------11-------------------------------11---11v--
A|-----------------------------------------------------------------------------------------
E|-----------------------------------------------------------------------------------------



E|-9---------------------------------------------------------------------------------------
B|-9-12-12/14v-----9----9-------14\9-9------------9-12-9---------------------------9-------
G|-9-----------------11---------------------11b13--------11b13v------11b13-11-9------11----
D|------------------------------------------------------------------------------11---------
A|-----------------------------------------------------------------------------------------
E|-----------------------------------------------------------------------------------------



E|---------------------------9--12--12/14v--------12v--------12b14r12v--------
B|--14r12--12v--------12b14---------------------------------------------------
G|----------------------------------------------------------------------------
D|----------------------------------------------------------------------------
A|----------------------------------------------------------------------------
E|----------------------------------------------------------------------------
http://www.guitartabcreator.com
Guitar Tab Creator is intended to store guitar tab created through the tool. It currently does not support in-line text editing. Any text you place in here will be lost. If you need to comment on your tab, please use the "Tab Notes" section located below.