Pink Floyd - David Gilmour - Echoes - Live in Gdansk INTRO Version

(/) Slide Up  (\) Slide Down  (h) Hammer On  (p) Pull Off  (b) Bend (r) Release (v) Vibrato


E|------------------------------------------------------------------------------------------------
B|---------------------------------------9-12b14b14----12b14-12p9----12----9\---------------------
G|-11b13r11p9-11----11b13-9--------11b13--------------------------11----11------------------------
D|--------------------------11v-------------------------------------------------------------------
A|------------------------------------------------------------------------------------------------
E|------------------------------------------------------------------------------------------------



E|-----------------9------------------------------------------------------------------------------
B|-------9-9-12b14---12-9----------------------------9-12b14b14-------12b14-12p9------------------
G|-11b13------------------11b13-11-9-----------11b13-----------------------------11v--------------
D|-----------------------------------11-----------------------------------------------------------
A|------------------------------------------------------------------------------------------------
E|------------------------------------------------------------------------------------------------



E|----------------------------------------------------------------------------------------------
B|-----------------------------------12---------------------------------------------------------
G|-11b13r11-9-11r9----------11b13b13----11b13-11-9-11-------------------------------------------
D|-----------------11v--------------------------------11-11v------------------------------------
A|----------------------------------------------------------------------------------------------
E|----------------------------------------------------------------------------------------------



E|-7--------------------------------------------------------------------------------------
B|---7------------6-----------------------15p14-------------------------------------------
G|-----7----------7----7-7-7--6-----------------14------------6---------------------------
D|-------9--------8----8-8-8--7--------------------14\13-11\6-----------------------------
A|---------9------8----8-8-8--7-----------------------------------------------------------
E|-----------7----6----6-6-6--5-----------------------------------------------------------
http://www.guitartabcreator.com
Guitar Tab Creator is intended to store guitar tab created through the tool. It currently does not support in-line text editing. Any text you place in here will be lost. If you need to comment on your tab, please use the "Tab Notes" section located below.