Lauren's Song


E|---------------- Repeat however many times...
B|---9----6---8---
G|---10---6---8---
D|----------------
A|---8----4---6---
E|----------------



E|-------------------------------------------------------------------
B|-------------------------------------------------------------------
G|---5---5---5---5---3---3---3---3---3---1---1---1---1-------1---3---
D|---6---6---6---6---------------------------------------3-----------
A|-------------------------------------------------------------------
E|---4---4---4---4---3---3---3---1---1---1---1---1---1---1---1---1---



E|-------------------------------1---
B|-------------------4---4---4---1---
G|---5---5---5---5---5---5---5---1---
D|---6---6---6---6---------------3---
A|-------------------3---3---3---3---
E|---4---4---4---4---------------1---



E|-------------------------------------------------------
B|-------------------4---4---4---3---8---3---8---8---8---
G|---5---5---5---5---5---5---5---3---8---3---8---8---8---
D|---6---6---6---6---------------------------------------
A|-------------------3---3---3---1---6---1---6---6---6---
E|---4---4---4---4--------------------------------------- http://www.guitartabcreator.com
Guitar Tab Creator is intended to store guitar tab created through the tool. It currently does not support in-line text editing. Any text you place in here will be lost. If you need to comment on your tab, please use the "Tab Notes" section located below.