Back in Black acoustic solo

(/) Slide Up  (\) Slide Down  (h) Hammer On  (p) Pull Off  (b) Bend (r) Release (v) Vibrato

E|--------------|--------------|----------------------------------|--
B|--------------|--------------|----------------------------------|--
G|--------------|--2-----------|----------------------------------|--
D|-----9--8--9--|--0--7--6--7--|--2--7--6--7--6--7--6--7p6--------|--
A|--2-----------|--------------|--0-------------------------7--7--|--
E|--0-----------|--------------|----------------------------------|--



E|-----------|-----------|-------------------------|--
B|-----------|-----------|-------------------------|--
G|-----9b10--|--2--7--6--|-----7--6--6--7/9--7-----|--
D|-----------|--0--------|--2-------------------9--|--
A|--2--------|-----------|--0----------------------|--
E|--0--------|-----------|-------------------------|--



E|-----------------------7--|--------------------------|------------7--10p7------10p7------|-----
B|-----------7--------7-----|-----------7--10p7-----7--|-----10b11-----------10--------10--|-----
G|-----9b10-----9b10--------|--2--9b10-----------9-----|-----------------------------------|-----
D|--------------------------|--0-----------------------|--2--------------------------------|-----
A|--2-----------------------|--------------------------|--0--------------------------------|-----
E|--0-----------------------|--------------------------|-----------------------------------|-----



E|--10--7----------------7----------|--
B|---------10--7--10b11-------------|--
G|--------------------------9p7-----|--
D|-------------------------------9--|--
A|----------------------------------|--
E|----------------------------------|--



E|-----------|-------------------|--------------------------------
B|-----------|-------------------|--------------------------------
G|-----9--7--|--2--7--6--7/9-----|-----7--6--7/9------------------
D|-----------|--0-------------9--|--2-------------9--7h9--7\6-----
A|--2--------|-------------------|--0--------------------------7--
E|--0--------|-------------------|--------------------------------
http://www.guitartabcreator.com
Guitar Tab Creator is intended to store guitar tab created through the tool. It currently does not support in-line text editing. Any text you place in here will be lost. If you need to comment on your tab, please use the "Tab Notes" section located below.