Sweep Solo

(/) Slide Up  (\) Slide Down  (h) Hammer On  (p) Pull Off  (b) Bend (r) Release (v) Vibrato
E|-19p15----------------15h19p15----------------15-17p14----------------14h17p14-
B|-------17----------17----------17----------17----------15----------15----------
G|----------16----16----------------16----16----------------14----14-------------
D|-------------17----------------------17----------------------16----------------
A|-------------------------------------------------------------------------------
E|-------------------------------------------------------------------------------



E|----------------14-15p12----------------12h15p12----------------12-
B|-15----------15----------13----------13----------13----------13----
G|----14----14----------------12----12----------------12----12-------
D|-------16----------------------14----------------------14----------
A|-------------------------------------------------------------------
E|-------------------------------------------------------------------



E|-------------------12-15-------------------14-17-
B|----------------13----------------------15-------
G|-------------12----------------------14----------
D|----------14----------------------16-------------
A|-------15----------------------17----------------
E|-12-17-------------------14-19-------------------



E|-19p15----------------15h19p15----------------15-20p15----------------15h20p15-
B|-------17----------17----------17----------17----------17----------17----------
G|----------16----16----------------16----16----------------16----16-------------
D|-------------17----------------------17----------------------17----------------
A|-------------------------------------------------------------------------------
E|-------------------------------------------------------------------------------



E|----------------15-17p14----------------14h17p14----------------14-
B|-17----------17----------15----------15----------15----------15----
G|----16----16----------------14----14----------------14----14-------
D|-------17----------------------16----------------------16----------
A|-------------------------------------------------------------------
E|-------------------------------------------------------------------



E|-------------------14-17----------------------------16-17-19---17--
B|----------------15-------------------------14-15-17----------------
G|-------------14-------------------12-14-16-------------------------
D|----------16-------------12-14-16----------------------------------
A|-------17----------------------------------------------------------
E|-14-19-------------------------------------------------------------

http://www.guitartabcreator.com
Guitar Tab Creator is intended to store guitar tab created through the tool. It currently does not support in-line text editing. Any text you place in here will be lost. If you need to comment on your tab, please use the "Tab Notes" section located below.