Seven Deadly Exes

(/) Slide Up  (\) Slide Down  (h) Hammer On  (p) Pull Off  (b) Bend (r) Release (v) Vibrato
When Drums come in
E|--------
B|--------
G|--------
D|--2--4--
A|--2--4--
E|--0--2--


Fast Part
E|--------------------------
B|--------------------------
G|--4-----------6-----------
D|--4--4--2--4--6--4--2--4--
A|--2--4--2--4--6--4--2--4--
E|-----2--0--2--4--2--0--2--


Mid-Tempo
E|-----------------------------------------------------------
B|-----------------------------------------------------------
G|--4--------------4-----------4-----------------6-----------
D|--4--4--2--6--4--2--4--2--4--4--4--2--6--4--2--4--6--4--2--
A|--2--4--2--6--4--2--4--2--4--2--4--2--6--4--2--4--6--4--2--
E|-----2--0--4--2--0--2--0--2-----2--0--4--2--0--2--4--2--0--


Breakdown
E|------------------------------------------------------------
B|------------------------------------------------------------
G|--4-----------------4--6--8--9--11--4-----------------------
D|--4--------2--6--4--4--6--8--9--11--4--------2--6--4--2--4--
A|--2--------2--6--4--2--4--6--7--9---2--------2--6--4--2--4--
E|-----2--4--0--4--2---------------------2--4--0--4--2--0--2--


Lead
E|----------------- x2
B|-----------------
G|--4--------------
D|--4--4--2--6--4--
A|--2--4--2--6--4--
E|-----2--0--4--2--
http://www.guitartabcreator.com
Guitar Tab Creator is intended to store guitar tab created through the tool. It currently does not support in-line text editing. Any text you place in here will be lost. If you need to comment on your tab, please use the "Tab Notes" section located below.