Our Summer (new key)

(/) Slide Up  (\) Slide Down  (h) Hammer On  (p) Pull Off  (b) Bend (r) Release (v) Vibrato


And we're taking it all back
E|-----------
B|-----------
G|-----------
D|-----------
A|--------2--
E|--0--2-----


Between now and the fall
E|-----------
B|-----------
G|-----------
D|-----------
A|-----------
E|--0--2--4--


And if we both go out swinging
E|--------------
B|--------------
G|--------------
D|--------------
A|--2-----------
E|-----2--4--0--


At least we gave it all
E|-----------
B|-----------
G|-----------
D|-----------
A|--------2--
E|--0--2-----
http://www.guitartabcreator.com
Guitar Tab Creator is intended to store guitar tab created through the tool. It currently does not support in-line text editing. Any text you place in here will be lost. If you need to comment on your tab, please use the "Tab Notes" section located below.