I Wish My Friend Ronnie Was Here

(/) Slide Up  (\) Slide Down  (h) Hammer On  (p) Pull Off  (b) Bend (r) Release (v) Vibrato

Verse
E|--------------------------
B|--------------------------
G|--5-----------------------
D|--5--5--7--3--2--3--7--5--
A|--3--5--7--3--2--3--7--5--
E|-----3--5--1--0--1--5--3--


Pre-Chorus
E|-----------------------
B|-----------------------
G|--------5--------------
D|--7--5--5--3--7--3--5--
A|--7--5--3--3--7--3--5--
E|--5--3-----1--5--1--3--


Chorus
E|--------------------------------
B|--------------------------------
G|--5-----------------5-----------
D|--5--5--7--3--2--3--5--5--3--5--
A|--3--5--7--3--2--3--3--5--3--5--
E|-----3--5--1--0--1--1--3--1--3--


Part with lead
E|-----------------------
B|-----------------------
G|--5--------------------
D|--5--5--7--3--2--3--5--
A|--3--5--7--3--2--3--5--
E|-----3--5--1--0--1--3--
http://www.guitartabcreator.com
Guitar Tab Creator is intended to store guitar tab created through the tool. It currently does not support in-line text editing. Any text you place in here will be lost. If you need to comment on your tab, please use the "Tab Notes" section located below.