Earth Crisis Hotline

(/) Slide Up  (\) Slide Down  (h) Hammer On  (p) Pull Off  (b) Bend (r) Release (v) Vibrato

Intro
E|-----------------------------
B|-----------------------------
G|-----------------------------
D|--4--6--2--2--6--4--2--6--4--
A|--4--6--2--2--6--4--2--6--4--
E|--2--4--0--0--4--2--0--4--2--


Verse
E|-----------------------------------------------
B|-----------------------------------------------
G|-----6-----------4-----------------------------
D|--4--6--6--4--2--4--4--2--4--6--4--2--4--6--4--
A|--4--4--6--4--2--2--4--2--4--6--4--2--4--6--4--
E|--2-----4--2--0-----2--0--2--4--2--0--2--4--2--


Pre-chorus
E|--------------------------
B|--------------------------
G|--------------------------
D|--6--2--4--2--6--4--2--4--
A|--6--2--4--2--6--4--2--4--
E|--4--0--2--0--4--2--0--2--


Chorus
E|-------------------------- x2
B|--------------------------
G|--4-----------------------
D|--4--4--6--2--4--4--2--4--
A|--2--4--6--2--4--4--2--4--
E|-----2--4--0--2--2--0--2--
http://www.guitartabcreator.com
Guitar Tab Creator is intended to store guitar tab created through the tool. It currently does not support in-line text editing. Any text you place in here will be lost. If you need to comment on your tab, please use the "Tab Notes" section located below.