Bouncer

(/) Slide Up  (\) Slide Down  (h) Hammer On  (p) Pull Off  (b) Bend (r) Release (v) Vibrato

E|-----
B|-----
G|--4--
D|--4--
A|--2--
E|-----


Verse
E|----------------- x3
B|-----------------
G|--4--------------
D|--4--4--2--6--4--
A|--2--4--2--6--4--
E|-----2--0--4--2--


Verse
E|-----------
B|-----------
G|--------4--
D|--2--4--4--
A|--2--4--2--
E|--0--2-----


Pre-Chorus
E|----------------------- x2
B|-----------------------
G|--------4--------------
D|--2--4--4--6--4--2--4--
A|--2--4--2--6--4--2--4--
E|--0--2-----4--2--0--2--


Chorus
E|----------------------- x2
B|-----------------------
G|--4-----------------4--
D|--4--4--6--2--2--4--4--
A|--2--4--6--2--2--4--2--
E|-----2--4--0--0--2-----


Bridge
E|--------------
B|--------------
G|--------------
D|--6--4--2--4--
A|--6--4--2--4--
E|--4--2--0--2--
http://www.guitartabcreator.com
Guitar Tab Creator is intended to store guitar tab created through the tool. It currently does not support in-line text editing. Any text you place in here will be lost. If you need to comment on your tab, please use the "Tab Notes" section located below.