Doomscreamer

(/) Slide Up  (\) Slide Down  (h) Hammer On  (p) Pull Off  (b) Bend (r) Release (v) Vibrato



E|-------------------------------------------------------------
B|-------------------------------------------------------------
G|3------------------------------------------------------------
D|4-time signature--------------------------------------------- x4
A|------------------------------------------------------------- All palm muted
E|--0--0--0-h10-h12--0--0--0-h7-h8--0--0--0-h3-h5--0--0--1--1--
1 2 triplet 1 2 triplet 1 2 triplet 1 2 3 & < rhythm


E|----------------------------------------------------------------------------------
B|----------------------------------------------------------------------------------
G|C-time signature------------------------------------------------------------------X6
D|-------------------------------------------------------------2--2--2--2--2--2--2--
A|-------------------------------------------------------------2--2--2--2--2--2--2--unmuted
E|--0--0--0-h10-h12--0--0--0-h7-h8--0--0--0-h3-h5--0--0--0--0-h1--1--1--1--1--1--1--
1 2 triplet 4 1 triplet 3 4 triplet 2 3 4 1 & 2 & 3 & 4 &


E|--------------
B|--------------
G|-------------- half time
D|--2--2--2--2--
A|--2--2--2--2--
E|--0--0--0--1-- rit
1 2 3 4


E|-----------------------------
B|-----------------------------
G|-----------------------------
D|--2--2--2--3--5--6--3--5-----mute em' good
A|--2--2--2--3--5--6--3--5-----
E|--0--0--0--1--3--4--1--3----- no idea on these rhythms just gotta listen
http://www.guitartabcreator.com
Guitar Tab Creator is intended to store guitar tab created through the tool. It currently does not support in-line text editing. Any text you place in here will be lost. If you need to comment on your tab, please use the "Tab Notes" section located below.