I Gotta Feeling- Red Scare

(/) Slide Up  (\) Slide Down  (h) Hammer On  (p) Pull Off  (b) Bend (r) Release (v) Vibrato

intro main verse
E|---------------------------------|---------------------------------|
B|---------------------------------|---------------------------------|
G|--1------------------------------|---------------------------------| (2x)
D|--------------0----0-------------|-----------------0(16x)----------|
A|-------1----3-----------3-1----1-|--------1(16x)-3--------3-1(16x)-|
E|---------------------------------|-1(16x)--------------------------|


alternative end
E|-------------------------------------------|-----------|
B|-------------------------------------------|-----------|
G|-------------------------------------------|-----------|
D|-----------------0(16x)--------------------|-------3-2-|
A|--------1(16x)-3--------3-1(8x)--------1p0-|-0-1-0-----|
E|-1(16x)------------------------------2-----|-----------|

same as bass part

order:
intro
main verse (2x)
alt.
main verse (2x)
intro
end








http://www.guitartabcreator.com
Guitar Tab Creator is intended to store guitar tab created through the tool. It currently does not support in-line text editing. Any text you place in here will be lost. If you need to comment on your tab, please use the "Tab Notes" section located below.