GM Clouds

(/) Slide Up  (\) Slide Down  (h) Hammer On  (p) Pull Off  (b) Bend (r) Release (v) Vibrato


E|--------------------------------------------------------------------------
B|--------------------------------------------------------------------------
G|--------------------------------------------------------------------------
D|-----------------------------6-----6-----6-----6--------------------------
A|-----6-----6-----6-----6-----------------------------5-----5-----5-----5--
E|--8-----8-----8-----8-----8-----8-----8-----8-----6-----6-----6-----6-----



E|--------------------------------------------------------------------------
B|--------------------------------------------------------------------------
G|--------------------------------------------------------------------------
D|-----5-----5-----5-----5-----------------------------3-----3-----3-----3--
A|-----------------------------3-----3-----3-----3--------------------------
E|--6-----6-----6-----6-----4-----4-----4-----4-----4-----4-----4-----4-----



E|--------------------------------------------------
B|--------------------------------------------------
G|--------------------------------------------------
D|-----------------------------1-----1-----1-----1--
A|-----5-----5-----5-----5--------------------------
E|--6-----6-----6-----6-----3-----3-----3-----3-----



E|-----------------------
B|--0--3--3--1--0--1--0--
G|-----------------------
D|-----------------------
A|-----------------------
E|-----------------------



E|------10------10------11------11------10------10------11------11--
B|--11------11------11------11------11------11------11------11------
G|------------------------------------------------------------------
D|------------------------------------------------------------------
A|------------------------------------------------------------------
E|------------------------------------------------------------------



E|------8------8-----8-----8------11------10-----11-----11--
B|--11-----11-----9-----9-----11------11------8------8------
G|----------------------------------------------------------
D|----------------------------------------------------------
A|----------------------------------------------------------
E|----------------------------------------------------------



E|----------15--------------15--------------18--------------18------
B|------------------16----------16------------------15----------15--
G|--17--17------17------17----------15--15------15------15----------
D|------------------------------------------------------------------
A|------------------------------------------------------------------
E|------------------------------------------------------------------



E|----------18--------------16--------------16----------
B|------------------13----------13------------------11--
G|--13--13------13------13----------13--13------13------
D|------------------------------------------------------
A|------------------------------------------------------
E|------------------------------------------------------



E|------11--11----------13--13----------
B|--------------11--------------11------
G|--13--------------13--------------13--
D|--------------------------------------
A|--------------------------------------
E|--------------------------------------
http://www.guitartabcreator.com
Guitar Tab Creator is intended to store guitar tab created through the tool. It currently does not support in-line text editing. Any text you place in here will be lost. If you need to comment on your tab, please use the "Tab Notes" section located below.