Vodka

(/) Slide Up  (\) Slide Down  (h) Hammer On  (p) Pull Off  (b) Bend (r) Release (v) Vibrato


E|--------------------------------------
B|--------------------------------------
G|---------------------------9--11--14--
D|--11--9--8--7----------11--9--11--14--
A|--11--9--8--7----------11--7--9---12--
E|--9---7--6--5----------9--------------



E|----------------------------------------------------------------------------------------
B|----------------------------------------------------------------------------------------
G|----------9--11--12--11--9--------------9--11--12--11--9--------------9--11--12--11--9--
D|--11--11--------------------11--11--11--------------------11--11--11--------------------
A|----------------------------------------------------------------------------------------
E|----------------------------------------------------------------------------------------



E|--------------------------------
B|--------------------------------
G|--------------9--11--12--11--9--
D|--11--11--11--------------------
A|--------------------------------
E|--------------------------------



E|-----------------------------------------------------------------------------------
B|-----------------------------------------------------------------------------------
G|----------9--11--12--11--9--------------9--11--12--11--9------9--11--12--11--9-----
D|--11--11--------------------11--11--11--------------------11-----------------------
A|-----------------------------------------------------------------------------------
E|-----------------------------------------------------------------------------------



E|-------------------------------
B|-------------------------------
G|------9--11--12--11--9------9--
D|--11--------------------11-----
A|-------------------------------
E|-------------------------------

Stave 1:

E|--
B|--
G|--
D|--
A|--
E|--

http://www.guitartabcreator.com
Guitar Tab Creator is intended to store guitar tab created through the tool. It currently does not support in-line text editing. Any text you place in here will be lost. If you need to comment on your tab, please use the "Tab Notes" section located below.