Song 5

(/) Slide Up  (\) Slide Down  (h) Hammer On  (p) Pull Off  (b) Bend (r) Release (v) Vibrato


E|---------------------------------------------------------------------------------------------
B|---------------------------------------------------------------------------------------------
G|------------------------7----7--7-----------------------------------5----5--5--4----4--4-----
D|--2----2--2----2--2--2--7----7--7--5----5--5--7----7--7----7--7--7--5----5--5--4----4--4--2--
A|--2----2--2----2--2--2--5----5--5--5----5--5--7----7--7----7--7--7--3----3--3--2----2--2--2--
E|--0----0--0----0--0--0-------------3----3--3--5----5--5----5--5--5------------------------0--



E|---------------------------------------------------------------------------------------------
B|---------------------------------------------------------------------------------------------
G|--9----9--9----9--9--9-------------7----7--7------------------------5----5--5--7----7--7--9--
D|--9----9--9----9--9--9--5----5--5--7----7--7--7----7--7----7--7--7--5----5--5--7----7--7--9--
A|--7----7--7----7--7--7--5----5--5--5----5--5--7----7--7----7--7--7--3----3--3--5----5--5--7--
E|------------------------3----3--3-------------5----5--5----5--5--5---------------------------



E|-----------------------------------------------------------------------------------------------------
B|-----------------------------------------------------------------------------------------------------
G|-----------------------------------------------------------------------------------------------------
D|--------------------------------7-----------------------------------------------5-----------4--------
A|--------2--------2-----2--5--5-----5--------5-----------7--------7-----7--3--3-----3--2--2-----2-----
E|--0--0-----0--0-----0-----------------3--3-----3--5--5-----5--5-----5--------------------------------



E|--
B|--
G|--
D|--
A|--
E|--
http://www.guitartabcreator.com
Guitar Tab Creator is intended to store guitar tab created through the tool. It currently does not support in-line text editing. Any text you place in here will be lost. If you need to comment on your tab, please use the "Tab Notes" section located below.