Song

(/) Slide Up  (\) Slide Down  (h) Hammer On  (p) Pull Off  (b) Bend (r) Release (v) Vibrato
E|------------------------------------------------------------------------------
B|------------------------------------------------------------------------------
G|------------------------------------------------------------------------------
D|--8--9----9--9--9----6--7----7--7--7----6--7----7--7--7--7--7--6--4--4--6--6--
A|--9--9----9--9--9----7--7----7--7--7----7--7----7--7--7--7--7--7--5--5--7--7--
E|--7--7----7--7--7----5--5----5--5--5------------------------------------------



E|---------------------------------------------------------------------------------
B|---------------------------------------------------------------------------------
G|---------------------------------------------------------------------------------
D|--8--9----9--9--9----6--7----7--7--7----6--7----7--7--7--7--7--7----7----7----7--
A|--9--9----9--9--9----7--7----7--7--7----7--7----7--7--7--7--7--7----7----7----7--
E|--7--7----7--7--7----5--5----5--5--5---------------------------------------------



E|------------------------------------------------------------------------------
B|------------------------------------------------------------------------------
G|------------------------------------------------------------------------------
D|--8--9----9--9--9----6--7----7--7--7----6--7----7--7--7--7--7--6--4--4--6--6--
A|--9--9----9--9--9----7--7----7--7--7----7--7----7--7--7--7--7--7--5--5--7--7--
E|--7--7----7--7--7----5--5----5--5--5------------------------------------------



E|----------------------------------------------------------------------------------
B|----------------------------------------------------------------------------------
G|----------------------------------------9--9----9--9--9----11----9----7--7--9--9--
D|--8--9----9--9--9----6--7----7--7--7----------------------------------------------
A|--9--9----9--9--9----7--7----7--7--7----7--7----7--7--7----9-----7----5--5--7--7--
E|--7--7----7--7--7----5--5----5--5--5----------------------------------------------
http://www.guitartabcreator.com
Guitar Tab Creator is intended to store guitar tab created through the tool. It currently does not support in-line text editing. Any text you place in here will be lost. If you need to comment on your tab, please use the "Tab Notes" section located below.