Riff 4

(/) Slide Up  (\) Slide Down  (h) Hammer On  (p) Pull Off  (b) Bend (r) Release (v) Vibrato


E|-------------------------------------------------
B|-------------------------------------------------
G|-------------------------------------------------
D|--------2--------2--------2--------2--------2----
A|-----4--------4--------4--------4--------4-------
E|--5--------5--------5--------5--------5----------



E|-------------------------------------------------
B|-------------------------------------------------
G|--------2--------2--------2--------2--------2----
D|-----0--------0--------0--------0--------0-------
A|--2--------2--------2--------2--------2----------
E|-------------------------------------------------



E|-------------------------------------------------
B|-------------------------------------------------
G|--------2--------2--------2--------2--------2----
D|-----2--------2--------2--------2--------2-------
A|--4--------4--------4--------4--------4----------
E|-------------------------------------------------



E|-------------------------------------------------
B|-------------------------------------------------
G|--------4--------4--------4--------4--------4----
D|-----6--------6--------6--------6--------6-------
A|--7--------7--------7--------7--------7----------
E|-------------------------------------------------
http://www.guitartabcreator.com
Guitar Tab Creator is intended to store guitar tab created through the tool. It currently does not support in-line text editing. Any text you place in here will be lost. If you need to comment on your tab, please use the "Tab Notes" section located below.