Riff 2

(/) Slide Up  (\) Slide Down  (h) Hammer On  (p) Pull Off  (b) Bend (r) Release (v) Vibrato


E|--------------------------------------------------
B|--------------------------------------------------
G|--------5--7--------5--7--------5--7--------5--7--
D|-----7-----------7-----------7-----------7--------
A|--5-----------5-----------5-----------5-----------
E|--------------------------------------------------



E|--------------------------------------------------
B|--------------------------------------------------
G|--------5--7--------5--7--------5--7--------5--7--
D|--------------------------------------------------
A|-----8-----------8-----------8-----------8--------
E|--6-----------6-----------6-----------6-----------



E|----------------------------------------------
B|----------------------------------------------
G|-----5--5/7-----5--5/7-----5--5/7-----5--5/7--
D|--3----------3----------3----------3----------
A|----------------------------------------------
E|----------------------------------------------



E|--------------------------------------------------
B|-----------3-----------3-----------3-----------3--
G|--------5-----------5-----------5-----------5-----
D|-----5-----------5-----------5-----------5--------
A|--3-----------3-----------3-----------3-----------
E|--------------------------------------------------
http://www.guitartabcreator.com
Guitar Tab Creator is intended to store guitar tab created through the tool. It currently does not support in-line text editing. Any text you place in here will be lost. If you need to comment on your tab, please use the "Tab Notes" section located below.