Riff 1

(/) Slide Up  (\) Slide Down  (h) Hammer On  (p) Pull Off  (b) Bend (r) Release (v) Vibrato


E|------------------------------------
B|------------------------------------
G|------------------------------------
D|--9----7--9--9b9--7-----------------
A|--9------------------9--7--9--7-----
E|--7---------------------------------



E|---------------------------------
B|---------------------------------
G|--7------------------------------
D|--7----7--9--9b9--7--------------
A|--5------------------9--7--9--7--
E|---------------------------------



E|-------------------------------
B|-------------------------------
G|--9----------------------------
D|--9--7--9--9b9--7--------------
A|--7----------------9--7--9--7--
E|-------------------------------



E|-----------------------------------
B|-----------------------------------
G|-------------7--9--9b--------9--7--
D|--9----7--9------------------------
A|--9--------------------------------
E|--7--------------------------------
http://www.guitartabcreator.com
Guitar Tab Creator is intended to store guitar tab created through the tool. It currently does not support in-line text editing. Any text you place in here will be lost. If you need to comment on your tab, please use the "Tab Notes" section located below.