Own Song

(/) Slide Up  (\) Slide Down  (h) Hammer On  (p) Pull Off  (b) Bend (r) Release (v) Vibrato
E|--------------------------------------------------
B|--------3-----------------------3-----------------
G|-----4-----4-----------------4-----4--------------
D|--------------2--4--------------------2--4--------
A|--2-----------------5--2--2-----------------5--2--
E|--------------------------------------------------



E|--------------------------------------------------
B|--------3-----------------------3-----------------
G|-----4-----4-----------------4-----4--------------
D|--------------2--4--------------------2--4--------
A|--0-----------------5--2--0-----------------5--2--
E|--------------------------------------------------



E|--------------------------------------------------
B|--------3-----------------------3-----------------
G|-----4-----4-----------------4-----4--------------
D|--6-----------2--4--------6-----------2--4--------
A|--------------------5--2--------------------5--2--
E|--------------------------------------------------



E|--------------------------------------------------
B|--------3-----------------------3-----------------
G|-----4-----4-----------------4-----4--------------
D|--5-----------2--4--------------------2--4--------
A|--------------------5--2--0-----------------5--2--
E|--------------------------------------------------



E|------------------------------------------------------------------------------------------
B|------------------------------------------------------------------------------------------
G|--4--4------4--4--------------------------------4--4------4--4----------------------------
D|--4--4------4--4------6--6----------------------4--4------4--4------6--6------------------
A|--2--2------0--0------2--2------2--2--2--4------2--2------0--0------2--2------2--2--2--4--
E|--------------------------------3--3--3--5------------------------------------3--3--3--5--
http://www.guitartabcreator.com
Guitar Tab Creator is intended to store guitar tab created through the tool. It currently does not support in-line text editing. Any text you place in here will be lost. If you need to comment on your tab, please use the "Tab Notes" section located below.