Notes

(/) Slide Up  (\) Slide Down  (h) Hammer On  (p) Pull Off  (b) Bend (r) Release (v) Vibrato

E|--------------------------------------------------
B|--------------------------------------------------
G|--------------------------------------------------
D|-----0-----2-----4-----5-----0-----2-----4-----5--
A|--------------------------------------------------
E|--0-----0-----0-----0-----0-----0-----0-----0-----



E|--------------------------------------------------
B|--------------------------------------------------
G|--------------------------------------------------
D|-----0-----2-----4-----5-----0-----2-----4-----5--
A|--------------------------------------------------
E|--3-----3-----3-----3-----3-----3-----3-----3-----



E|--------------------------------------------------
B|--------------------------------------------------
G|--------------------------------------------------
D|-----0-----2-----4-----5-----0-----2-----4-----5--
A|--0-----0-----0-----0-----0-----0-----0-----0-----
E|--------------------------------------------------



E|--------------------------------------------------
B|--------------------------------------------------
G|--------------------------------------------------
D|-----0-----2-----4-----5-----4-----5-----6-----7--
A|--3-----3-----3-----3-----5-----5-----5-----5-----
E|--------------------------------------------------



E|--------------------------------------------------
B|--------------------------------------------------
G|--------------------------------------------------
D|-----0-----2-----4-----5-----7-----9-----9-----9--
A|--------------------------------------------------
E|--0-----0-----0-----0-----0-----0-----0-----0-----



E|--------------------------------------------------
B|--------------------------------------------------
G|-----------------------0-----2-----4-----4-----4--
D|-----0-----2-----4--------------------------------
A|--------------------------------------------------
E|--3-----3-----3-----3-----3-----3-----3-----3-----



E|--------------------------------------------------
B|--------------------------------------------------
G|--------------------------------------------------
D|-----0-----2-----4-----5-----7-----9-----9-----9--
A|--0-----0-----0-----0-----0-----0-----0-----0-----
E|--------------------------------------------------



E|--------------------------------------------------
B|--------------------------------------------------
G|--------------------------------------------------
D|-----0-----2-----4-----5-----4-----5-----6-----7--
A|--3-----3-----3-----3-----5-----5-----5-----5-----
E|--------------------------------------------------



E|-----------------------------------------------------0--
B|-----------------------------------------------------5--
G|-------------------------4-------------5----5--5--7--0--
D|--2--2--4--5----5--5--7--5----7--7--9--7----5--5--5--5--
A|--2--2--2--2----5--5--5--5----7--7--7--7----3--3--3--3--
E|--0--0--0--0----3--3--3--3----5--5--5-------------------



E|--0----3----0----0--2-----
B|--0----3----2----1--3-----
G|--0----0----0----0--2-----
D|--2----0----2----2--0-----
A|--2----2----0----3--------
E|--0----3------------------



E|--0----3----0----0--2--
B|--0----3----2----0--3--
G|--0----0----0----5--2--
D|--2----0----2----5--0--
A|--2----2----0----3-----
E|--0----3---------------
http://www.guitartabcreator.com
Guitar Tab Creator is intended to store guitar tab created through the tool. It currently does not support in-line text editing. Any text you place in here will be lost. If you need to comment on your tab, please use the "Tab Notes" section located below.