Notes

(/) Slide Up  (\) Slide Down  (h) Hammer On  (p) Pull Off  (b) Bend (r) Release (v) Vibrato

E|--------------------------------------------------
B|--------------------------------------------------
G|--------------------------------------------------
D|-----0-----2-----4-----5-----0-----2-----4-----5--
A|--------------------------------------------------
E|--0-----0-----0-----0-----0-----0-----0-----0-----



E|--------------------------------------------------
B|--------------------------------------------------
G|--------------------------------------------------
D|-----0-----2-----4-----5-----0-----2-----4-----5--
A|--------------------------------------------------
E|--3-----3-----3-----3-----3-----3-----3-----3-----



E|--------------------------------------------------
B|--------------------------------------------------
G|--------------------------------------------------
D|-----0-----2-----4-----5-----0-----2-----4-----5--
A|--0-----0-----0-----0-----0-----0-----0-----0-----
E|--------------------------------------------------



E|--------------------------------------------------
B|--------------------------------------------------
G|--------------------------------------------------
D|-----0-----2-----4-----5-----4-----5-----6-----7--
A|--3-----3-----3-----3-----5-----5-----5-----5-----
E|--------------------------------------------------



E|--
B|--
G|--
D|--
A|--
E|--
http://www.guitartabcreator.com
Guitar Tab Creator is intended to store guitar tab created through the tool. It currently does not support in-line text editing. Any text you place in here will be lost. If you need to comment on your tab, please use the "Tab Notes" section located below.