Bald song

(/) Slide Up  (\) Slide Down  (h) Hammer On  (p) Pull Off  (b) Bend (r) Release (v) Vibrato

Stave 1:

E|------------------------------------------------------------
B|------------------------------------------------------------
G|------------------------------------------------------------
D|------------------------------------------------------------
A|-----4h5--7--5--4--5--4h5p4\2-----4h5--7--5--4--5--4h5p4\2--
E|--0----------------------------0----------------------------

Stave 2:

E|--------------------------------------------------------------
B|--------------------------------------------------------------
G|----------4-----------------------------4---------------------
D|-----4h5-----5--4--5--4h5p4--------4h5-----5--4--5--4h5p4-----
A|-----------------------------5-----------------------------5--
E|--0-----------------------------0-----------------------------

Stave 3:

E|----------------------------------------------------------------------------------
B|----------------------------------------------------------------------------------
G|--4--4----4--4--4----4--4--4----4--4--4-------------------------------------------
D|--5--5----5--5--5----5--5--5----5--5--5----4--4----4--4--4----4--4--4----4--4--4--
A|--7--7----7--7--7----7--7--7----7--7--7----5--5----5--5--5----5--5--5----5--5--5--
E|-------------------------------------------7--7----7--7--7----7--7--7----7--7--7--

Stave 4:

E|----------------------------------------------------------------------------------
B|----------------------------------------------------------------------------------
G|--4--4----4--4--4----4--4--4----4--4--4----8--8----8--8--8----8--8--8----8--8--8--
D|--5--5----5--5--5----5--5--5----5--5--5----7--7----7--7--7----7--7--7----7--7--7--
A|--7--7----7--7--7----7--7--7----7--7--7----6--6----6--6--6----6--6--6----6--6--6--
E|-------------------------------------------7--7----7--7--7----7--7--7----7--7--7--

http://www.guitartabcreator.com
Guitar Tab Creator is intended to store guitar tab created through the tool. It currently does not support in-line text editing. Any text you place in here will be lost. If you need to comment on your tab, please use the "Tab Notes" section located below.