Another song

(/) Slide Up  (\) Slide Down  (h) Hammer On  (p) Pull Off  (b) Bend (r) Release (v) Vibrato
E|--0----------0----------0----------0------0----0----
B|--1----------1----------1----------1------1----0----
G|--2----------0----------2----------2------2----1----
D|--2----------0----------0----------0------3----2----
A|--0----------2----------0----------0------3----2----
E|-------------3----------2----------2------0----0----



E|--0----------0----------0----------0----------
B|--1----------0----------0----------0----------
G|--2----------0----------0----------2----------
D|--2----------2----------0----------0----------
A|--0----------2----------2----------0----------
E|-------------0----------3----------2----------



E|--5------------------------------------------------------------------
B|--8b10--10--5/8--5---------------------------------------------------
G|--------------------7--5/7--5--5/7--5--------------------------------
D|---------------------------------------7--5/7--5--5/7--5-------------
A|----------------------------------------------------------7----------
E|-------------------------------------------------------------3--3/8--



E|--5-----10-----------------------------------------------------------
B|--8b10------8b10--8--5--8/10--8--5h8--5--3---------------------8-----
G|--------------------------------------------2--2/5--5h7--5-----7--7--
D|------------------------------------------------------------7--------
A|---------------------------------------------------------------------
E|---------------------------------------------------------------------



E|--0----------0----------0----------0------0--
B|--1----------0----------3----------0------1--
G|--2----------0----------2----------2------2--
D|--2----------0----------0----------0------0--
A|--0----------2----------0----------0------0--
E|-------------3----------2----------2------2--



E|--0--------------------0--------0--------0-----0----------------------------------------------
B|--1-----------1-----------1--------1--------1--1----------------------1--------1--------1-----
G|--2--------2-----2-----------2--------2--------0-------------0-----------0--------0--------0--
D|--2-----2-----------2--------------------------0----------0-----0-----------0--------0--------
A|--0--0-----------------------------------------2-------2-----------2--------------------------
E|-----------------------------------------------3----3-----------------------------------------



E|--0--------------------------------------------0--------------------0-----------------0--0--
B|--1--------------------1--------1--------1-----1-----------1--------0--------0--------1--1--
G|--2-----------2-----------2--------2--------2--2--------2-----2-----1-----------1-----0--2--
D|--0--------0-----0-----------0--------0--------3-----3-----------3--2-----2--------2--2--2--
A|--0-----0-----------0--------------------------3--3-----------------2--2--------------0--0--
E|--2--2-----------------------------------------0--------------------0-----------------------
http://www.guitartabcreator.com
Guitar Tab Creator is intended to store guitar tab created through the tool. It currently does not support in-line text editing. Any text you place in here will be lost. If you need to comment on your tab, please use the "Tab Notes" section located below.