Multiverse Riff

(/) Slide Up  (\) Slide Down  (h) Hammer On  (p) Pull Off  (b) Bend (r) Release (v) Vibrato


E|---------------------------------------------
B|---------------------------------------------
G|---------------------------------------------
D|-----9---------------------------------------
A|-----------9p8--7h8p7------------------------
E|--7-----7--------------10--7--2--2--3--5--6--



E|---------------------------------------------------------------------------------------
B|---------------------------------------------------------------------------------------
G|--------------------------9--------------------7---------------------------------------
D|-----9--------------------------6--7--8--9-----------7--6--5h6p5-----7-----------------
A|-----------9p8--7h8p7--7-----7--------------5-----5------------------------4--5--6--7--
E|--7-----7---------------------------------------------------------5-----5--------------
http://www.guitartabcreator.com
Guitar Tab Creator is intended to store guitar tab created through the tool. It currently does not support in-line text editing. Any text you place in here will be lost. If you need to comment on your tab, please use the "Tab Notes" section located below.