Implanted Futurism Riff

(/) Slide Up  (\) Slide Down  (h) Hammer On  (p) Pull Off  (b) Bend (r) Release (v) Vibrato


E|--------------------------------------------------------------------------------------------------
B|--------------------------------------------------------------------------------------------------
G|-----------------4--5--6-----------------4--5--6-----------------4--5--6-----------------4--5--6--
D|--------4--5--6-----------------4--5--6-----------------4--5--6-----------------4--5--6-----------
A|--5--6--------------------5--6--------------------5--6--------------------5--6--------------------
E|--------------------------------------------------------------------------------------------------



E|----------------------------------------------------------------------------------------
B|--------------------------------------------------------------------------------------8b
G|--7--6--5--6--5-----5-----7--6--5--6--5-----5-----7--6--5--6--5-----5-----7--6--5--6----
D|-----------------7-----7-----------------7-----7-----------------7-----7----------------
A|----------------------------------------------------------------------------------------
E|----------------------------------------------------------------------------------------



E|--------------------------------------------------------------------------------------------------
B|--------------------------------------------------------------------------------------------------
G|--7--6--5--6--5-----5-----7--6--5--6--5-----5-----7--6--5--6--5-----5-----7--6--5--6--5-----5-----
D|-----------------7-----7-----------------7-----7-----------------7-----7-----------------7-----7--
A|--------------------------------------------------------------------------------------------------
E|--------------------------------------------------------------------------------------------------
http://www.guitartabcreator.com
Guitar Tab Creator is intended to store guitar tab created through the tool. It currently does not support in-line text editing. Any text you place in here will be lost. If you need to comment on your tab, please use the "Tab Notes" section located below.