Demo 1

(/) Slide Up  (\) Slide Down  (h) Hammer On  (p) Pull Off  (b) Bend (r) Release (v) Vibrato

Stave 1:

E|--------------------------------------------------------------------------------------------------
B|--------------------------------------------------------------------------------------------------
G|--------------------------------------------------------------------------------------------------
D|-----------------------------------------------------------------3--3-----------------------------
A|--5--5--3--3--1--1--3--3--5--5--3--3--1--1--0--1--0--5--5--3--3--------3--3--5--5--3--3--1--1--0--
E|--------------------------------------------------------------------------------------------------

Stave 2:

E|--------------------------------------------------------------------------
B|--------------------------------------------------------------------------
G|--------------------------------------------------------------------------
D|--7--7--7--5--5--5--3--3--3--5--5--5--7--7--7--5--5--5--3--3--3--0--3--0--
A|--5--5--5--3--3--3--1--1--1--3--3--3--5--5--5--3--3--3--1--1--1--0--1--0--
E|--------------------------------------------------------------------------

Stave 3:

E|-----------------------------------------------------------
B|-----------------------------------------------------------
G|--------------------5--5--5--------------------------------
D|--7--7--7--5--5--5--3--3--3--5--5--5--7--7--7--5--5--5--3--
A|--5--5--5--3--3--3-----------3--3--3--5--5--5--3--3--3--1--
E|-----------------------------------------------------------

Stave 4:

E|--------------------------------------
B|--------------------------------------
G|--------------------5--5--5--7-----5--
D|--7--7--7--5--5--5--3--3--3--5--------
A|--5--5--5--3--3--3--------------------
E|--------------------------------------

Stave 5:

E|------17----------15----------13----------12----------17----------15----------13-------------------
B|--15------15--13------13--11------11--10------10--15------15--13------13--11------11--10-----------
G|---------------------------------------------------------------------------------------------------
D|---------------------------------------------------------------------------------------------------
A|---------------------------------------------------------------------------------------------------
E|---------------------------------------------------------------------------------------------------

http://www.guitartabcreator.com
Guitar Tab Creator is intended to store guitar tab created through the tool. It currently does not support in-line text editing. Any text you place in here will be lost. If you need to comment on your tab, please use the "Tab Notes" section located below.