You Raise Me Up- Josh Groban

(/) Slide Up  (\) Slide Down  (h) Hammer On  (p) Pull Off  (b) Bend (r) Release (v) Vibrato

E|---------------3-------------------------------
B|-----------4-------4---6---4---4-----------4---
G|---3---3---------------------------5---3-------
D|-----------------------------------------------
A|-----------------------------------------------
E|-----------------------------------------------



E|-----------3---6-------8---6---3---1---
B|---3---4-----------4-------------------
G|---------------------------------------
D|---------------------------------------
A|---------------------------------------
E|---------------------------------------



E|---6---6---10---11-------10---8-----------------
B|---------------------9------------11---9---11---
G|------------------------------------------------
D|------------------------------------------------
A|------------------------------------------------
E|------------------------------------------------



E|--------1--3--6--3--------------
B|--4--4--------------6--4--6--4--
G|--------------------------------
D|--------------------------------
A|--------------------------------
E|--------------------------------
http://www.guitartabcreator.com
Guitar Tab Creator is intended to store guitar tab created through the tool. It currently does not support in-line text editing. Any text you place in here will be lost. If you need to comment on your tab, please use the "Tab Notes" section located below.