Wrecking Ball

(/) Slide Up  (\) Slide Down  (h) Hammer On  (p) Pull Off  (b) Bend (r) Release (v) Vibrato
E|-----------------------------------------------------------------------
B|-----------------------------------------------------------------------
G|-----------------------------------------------------------------------
D|-----------2-----2-----------------------------------------------------
A|-----4-----4-----4-----4-----4-----4-----2-----2-----4-----2-----------
E|-----5-----------------2-----0-----2-----0-----------------------0-----



E|------------------------------------------------------------------
B|-----9-----10-----10-----14-----14-----12-----12-----10-----------
G|-----9------------9------9------9------7------7------6------------
D|------------------------------------------------------------------
A|------------------------------------------------------------------
E|------------------------------------------------------------------



E|-----------------------------------------------------------
B|-----------------------------------------------------------
G|--7--7--7-----7---7---7---7-----------6--------4--2--2--2--
D|--9--9--9--7--7---7---7---7-----------7--------5--4--4--4--
A|--9--9--9-----9---9---9------9-----7--7-----5--5--4--4--4--
E|--7--7--7--9--10--10--10--------5-----5--3-----3--2--2--2--



E|-----0--------0-------0-----0-------0---------0----------0-------0----------12----
B|---7--------7---7---7-----7---7---7---7----14---14----14------14---14----14----14-
G|-6--------6-------4-----6-------6-------14---------13------14---------14----------
D|----------------------------------------------------------------------------------
A|----------------------------------------------------------------------------------
E|----------------------------------------------------------------------------------
http://www.guitartabcreator.com
Guitar Tab Creator is intended to store guitar tab created through the tool. It currently does not support in-line text editing. Any text you place in here will be lost. If you need to comment on your tab, please use the "Tab Notes" section located below.