Time in Company

(/) Slide Up  (\) Slide Down  (h) Hammer On  (p) Pull Off  (b) Bend (r) Release (v) Vibrato


E|------------------------------------------------------------------
B|------------------------------------------------------------------
G|--7----11--7--11--7--7--5--5--5----7----11--7--11--7--7--5--5--5--
D|------------------------------------------------------------------
A|--9----12--9--12--9--9--7--7--7----9----12--9--12--9--9--7--7--7--
E|--0----0---0--0---0--0--0--0--0----0----0---0--0---0--0--0--0--0--



E|-----------------
B|-----------------
G|-----4-----2-----
D|-----------------
A|-----5-----3-----
E|-----5-----3-----
http://www.guitartabcreator.com
Guitar Tab Creator is intended to store guitar tab created through the tool. It currently does not support in-line text editing. Any text you place in here will be lost. If you need to comment on your tab, please use the "Tab Notes" section located below.