Sonic Boom

(/) Slide Up  (\) Slide Down  (h) Hammer On  (p) Pull Off  (b) Bend (r) Release (v) Vibrato

E|----------------------------------------------------------------------------------
B|-------------------------------------------------3--3-----3--3--3-----3--3-----3--
G|--7--7--7--7----9--9----2--2--2--2----0--0-------0--0-----0--0--0-----0--0-----0--
D|--7--7--7--7----7--7----2--2--2--2----2--2-------0--0-----0--0--0-----0--0-----0--
A|--8--8--8--8----8--8----3--3--3--3----3--3-------2--2-----2--2--2-----2--2-----2--
E|----------------------------------------------3--3--3--3--3--3--3--3--3--3--3--3--



E|-----5-----8------3-----
B|-----6-----8------3-----
G|-----7-----9------4-----
D|-----7-----10-----5-----
A|-----5-----10-----5-----
E|-----------8------3-----



E|---------------------------------------------------------------------0-----------0-----
B|-----3-----0---------------------------3-----0-----------------------7-----8-----8-----
G|----------------------2-----0----------------------0-----2-----0-----------------------
D|---------------------------------------------------------------------------------------
A|---------------------------------------------------------------------------------------
E|---------------------------------------------------------------------------------------
http://www.guitartabcreator.com
Guitar Tab Creator is intended to store guitar tab created through the tool. It currently does not support in-line text editing. Any text you place in here will be lost. If you need to comment on your tab, please use the "Tab Notes" section located below.