Sandman

(/) Slide Up  (\) Slide Down  (h) Hammer On  (p) Pull Off  (b) Bend (r) Release (v) Vibrato
E|--------7-----------2-----------7-----------------0-----------0--
B|--------7-----------2-----------7--------------0-----0--------0--
G|--------8-----------3-----------8-----------3-----------3-----3--
D|--------9-----------4-----------9--------4-----------------4--4--
A|-----9--9--------4--4--------9--9-----------------------------4--
E|--7-----7--7--2-----2--2--7-----7--7--2-----------------------2--



E|----0-----------------4------------0-----------------0----
B|----0------------4----5------------0------------4----5----
G|----1------------4----6------------1------------4----6----
D|----2------------4----6------------2------------4----6----
A|----2------------2----4------------2------------2----4----
E|----0------------------------------0-----------------0----



E|-------------------------------------
B|-------------------------------------
G|-------------------------------------
D|---7---7---7---6----9----9----9----9-
A|-------------------------------------
E|-9---9---9---7---11---11---11---11---



E|-------------------------------
B|-------------------------------
G|-----------------------------4-
D|---7---7---7---6---1---1---1-1-
A|-------------------------------
E|-9---9---9---7---2---2---2---2-



E|--0--0--0----0--0---0---0---0---
B|--0--0--0----0--0---0---0---0---
G|--9--9--9----9--11--11--11--11--
D|--7--7--7----6--9---9---9---9---
A|--------------------------------
E|--9--9--9----7--11--11--11--11--



E|--0--0--0--0--0--0--0--0--
B|--0--0--0--0--0--0--0--0--
G|--9--9--9--9--4--4--4--4--
D|--7--7--7--6--1--1--1--1--
A|--------------------------
E|--9--9--9--7--2--2--2--2--



E|--5--5--5--5----4--4----7--7--7--7----2--2--
B|--5--5--5--5----4--4----7--7--7--7----2--2--
G|--6--6--6--6----4--4----8--8--8--8----2--2--
D|--7--7--7--7----6--6----9--9--9--9----4--4--
A|--7--7--7--7----6--6----9--9--9--9----4--4--
E|--5--5--5--5----4--4----7--7--7--7----2--2--



E|----------0----------0------------------0----------0--0---
B|------12---------12---------12------16---------16-----16--
G|--14---------13---------13------18---------16---------16--
D|----------------------------------------------------------
A|----------------------------------------------------------
E|----------------------------------------------------------
http://www.guitartabcreator.com
Guitar Tab Creator is intended to store guitar tab created through the tool. It currently does not support in-line text editing. Any text you place in here will be lost. If you need to comment on your tab, please use the "Tab Notes" section located below.