Pocket Doll

(/) Slide Up  (\) Slide Down  (h) Hammer On  (p) Pull Off  (b) Bend (r) Release (v) Vibrato
E|----------------------------------------------------------------------------------------
B|----------------------------------------------------------------------------------------
G|----------------------------------------------------------------------------------------
D|----------------------------------------------------------------------------------------
A|----------------------------------------------------------------------------------------
E|--9----9--9--7--7--0--0----0--0--0----0--9----9--9--11--11--12--12----12--12--12----12--



E|---------------------------------------------------------------------------------------
B|---------------------------------------------------------------------------------------
G|---------------------------------------------------------------------------------------
D|---------------------------------------------------------------------------------5-----
A|--------------------------------------------9--------7-----5----5-------5--5--7-----7--
E|--9----9--9--7--7--0--0----0--0--0----0--9-----9--7-----7----------0-------------------



E|---------2-0-0-
B|-------3---3-3-
G|-----2---------
D|---4-----------
A|-5-------------
E|---------------



E|-----------------------------------------------------------------
B|-----------------------------------------------------------------
G|-----------------------------------------------------------------
D|-----------------------------------------------------------------
A|-------5-------------5----------5-----5--5-----5-----------------
E|--3-------3--3--2-------2--2----0--0-----0--0--0--0--0--0--0--0--



E|----------------------------------------------------------------------------------------------------
B|----------------------------------------------------------------------------------------------------
G|----7------7--7--6--6--2--2----2--2--2----2------7----7--7--6--6--11--11----11--11--12--12--11------
D|----9------9--9--7--7--4--4----4--4--4----4------9----9--9--7--7--12--12----12--12--------------12--
A|-----------------------0--0----0--0--0----0---------------------------------------------------------
E|----9------9--9--7--7--0--0----0--0--0----0------9----9--9--7--7--12--12----12--12------------------
http://www.guitartabcreator.com
Guitar Tab Creator is intended to store guitar tab created through the tool. It currently does not support in-line text editing. Any text you place in here will be lost. If you need to comment on your tab, please use the "Tab Notes" section located below.