Nova (chorus guitar lead)

(/) Slide Up  (\) Slide Down  (h) Hammer On  (p) Pull Off  (b) Bend (r) Release (v) Vibrato


E|------17----------17----------17------15----------15----------15------10----------10-------------
B|----------15----------15------------------13----------13------------------13----------13---------
G|--17----------17----------17------14----------14----------14------10----------10----------10-----
D|-------------------------------------------------------------------------------------------------
A|-------------------------------------------------------------------------------------------------
E|-------------------------------------------------------------------------------------------------



E|--10------8----------8--------------0--
B|-------------10---------10-------------
G|------10---------10---------10--10-----
D|---------------------------------------
A|---------------------------------------
E|---------------------------------------
http://www.guitartabcreator.com
Guitar Tab Creator is intended to store guitar tab created through the tool. It currently does not support in-line text editing. Any text you place in here will be lost. If you need to comment on your tab, please use the "Tab Notes" section located below.