Dirty Mac

(/) Slide Up  (\) Slide Down  (h) Hammer On  (p) Pull Off  (b) Bend (r) Release (v) Vibrato


E|-------------------------------------------------------
B|-------------------------------------------------------
G|-------------------------------------------------------
D|-------------------------------------------------------
A|-------8--8--8-----8--8--8-----8--8--8-----8--8--8-----
E|--3/5-----------5-----------5-----------5--------------



E|--------------------------------------------------------------------
B|--------------------------------------------------------------------
G|--------------------------------------------------------------------
D|--------------------------------------------------------------------
A|-----5-----------5-----------5-----------5--------8--10--8--10--11--
E|--5-----8--7--5-----8--7--5-----8--7--5-----8--7--------------------



E|-----------------------------------------------------
B|-----------------------------------------------------
G|-----------------------------------------------------
D|-----------------------------------------------------
A|--------------------------3--3--3--3/10--10--10--10--
E|--5--5--5--0--1--1--1--1-----------------------------
http://www.guitartabcreator.com
Guitar Tab Creator is intended to store guitar tab created through the tool. It currently does not support in-line text editing. Any text you place in here will be lost. If you need to comment on your tab, please use the "Tab Notes" section located below.