start

(/) Slide Up  (\) Slide Down  (h) Hammer On  (p) Pull Off  (b) Bend (r) Release (v) Vibrato

E|--0--0-------------------------------------------------------------------------------------------
B|--0--2-------------------------------------------------------------------------------------------
G|--1--2-------------------------------------------------------------------------------------------
D|--2--2--------6--7-----6--6-----------------8--7--7----------------------------------------------
A|--2--0--4--5--------7--------8--7--7--7--7-----------6--6--5--5--5--5--5--5----------------------
E|--0--x-----------------------------------------------------------------------6--6--6--6--6-------



E|-----------------------
B|-----------------------
G|-----------------------
D|--------4--4--4--4--7--
A|--2--3-----------------
E|-----------------------



E|--
B|--
G|--
D|--
A|--
E|--
http://www.guitartabcreator.com
Guitar Tab Creator is intended to store guitar tab created through the tool. It currently does not support in-line text editing. Any text you place in here will be lost. If you need to comment on your tab, please use the "Tab Notes" section located below.