rock song riff 1

(/) Slide Up  (\) Slide Down  (h) Hammer On  (p) Pull Off  (b) Bend (r) Release (v) Vibrato


E|----------------------------------------------------------------------------------------------
B|----------------------------------------------------------------------------------------------
G|----------------------------------------------------------------------------------------------
D|----------14----------14----------14----------14----------10----------10----------10----------
A|------12----------12----------12----------12----------12----------12----------12----------12--
E|--10----------10----------10----------10----------10----------10----------10----------10------



E|----------------------------------------------------------------------------------------------
B|----------------------------------------------------------------------------------------------
G|----------------------------------------------------------------------------------------------
D|--10---------12---------12---------12---------12----------14----------14----------14----------
A|---------10---------10---------10---------10----------12----------12----------12----------12--
E|------8----------8----------8----------8----------10----------10----------10----------10------



E|------
B|------
G|------
D|--14--
A|------
E|------
http://www.guitartabcreator.com
Guitar Tab Creator is intended to store guitar tab created through the tool. It currently does not support in-line text editing. Any text you place in here will be lost. If you need to comment on your tab, please use the "Tab Notes" section located below.