Rainbow Fish (verse 1)

(/) Slide Up  (\) Slide Down  (h) Hammer On  (p) Pull Off  (b) Bend (r) Release (v) Vibrato
E|-------------------------------------------------------------------------------------------|---
B|-------10-------10-------10-------10-------10-------10-------10-------10-------10-------10-|---
G|---9--------9--------9--------9--------9--------9--------9--------9--------9--------9------|---
D|-------------------------------------------------------------------------------------------|---
A|-8---8----8---8----8---8----8---8----8---8----8---8----8---8----8---8----8---8----8---8----|---
E|-------------------------------------------------------------------------------------------|---



E|-------10-------10-------10-------10-------10-------10-------10-------10-------10-------10-|-
B|-------------------------------------------------------------------------------------------|-
G|---9--------9--------9--------9--------9--------9--------9--------9--------9--------9------|-
D|-------------------------------------------------------------------------------------------|-
A|-8---8----8---8----8---8----8---8----8---8----8---8----8---8----8---8----8---8----8---8----|-
E|-------------------------------------------------------------------------------------------|-



E|-----------------------------------------------------------------------------------8-------|-
B|---8-------8-------8-------8-------8-------8-------8-------8-------8-------8---------------|-
G|-------9-------9-------9-------9-------9-------9-------9-------9-------9-------9-------9---|-
D|-------------------------------------------------------------------------------------------|-
A|-8---8---8---8---8---8---8---8---8---8---8---8---8---8---8---8---8---8---8---8---8---8---8-|-
E|-------------------------------------------------------------------------------------------|-



E|-8-------8-------8-------8-------8-------8-------8-------8-------8-------------------------|-
B|-----------------------------------------------------------------------------7-------7-----|-
G|-----9-------9-------9-------9-------9-------9-------9-------9-------9---8-------8-------8-|-
D|-------------------------------------------------------------------------------------------|-
A|---8---8---8---8---8---8---8---8---8---8---8---8---8---8---8---8---8---9---9---9---9---9---|-
E|-------------------------------------------------------------------------------------------|-



E|-------------------------------------------------------------------7-------7-------7-------|-
B|---7-------7-------7-------7-------7-------7-------7-------7-------------------------------|-
G|-------8-------8-------8-------8-------8-------8-------8-------8-------8-------8-------8---|-
D|-------------------------------------------------------------------------------------------|-
A|-9---9---9---9---9---9---9---9---9---9---9---9---9---9---9---9---9---9---9---9---9---9---9-|-
E|-------------------------------------------------------------------------------------------|-



E|-7-------7-------7-------7-------7-------7-------7-----------------------------------------|-
B|-----------------------------------------------------5-------5-------5-------5-------5-----|-
G|-----9-------9-------9-------9-------9-------9-----------7-------7-------7-------7-------7-|-
D|-------------------------------------------------------------------------------------------|-
A|---8---8---8---8---8---8---8---8---8---8---8---8---9---9---9---9---9---9---9---9---9---9---|-
E|-------------------------------------------------------------------------------------------|-



E|-------------------------------------------5-------5-------5-------5-------5-------5-------|-
B|---5-------5-------5-------5-------5-------------------------------------------------------|-
G|-------7-------7-------7-------7-------7-------7-------7-------7-------7-------7-------7---|-
D|-------------------------------------------------------------------------------------------|-
A|-9---9---9---9---9---9---9---9---9---9---9---9---9---9---9---9---9---9---9---9---9---9---9-|-
E|-------------------------------------------------------------------------------------------|-



E|--5-----------5-----------5-----------5-----------5----------------------------------------------------------------------------------------------------------------|--
B|-------------------------------------------------------------------------------------------------------------------------------------------------------------------|--
G|--------7-----------7-----------7-----------7-----------7----------------------------------------------------------------------------------------------------------|--
D|-------------------------------------------------------------------------------------------------------------------------------------------------------------------|--
A|-----9-----9-----9-----9-----9-----9-----9-----9-----9-------------------------------------------------------------------------------------------------------------|--
E|-------------------------------------------------------------------------------------------------------------------------------------------------------------------|--
http://www.guitartabcreator.com
Guitar Tab Creator is intended to store guitar tab created through the tool. It currently does not support in-line text editing. Any text you place in here will be lost. If you need to comment on your tab, please use the "Tab Notes" section located below.