FWB chorus riff

(/) Slide Up  (\) Slide Down  (h) Hammer On  (p) Pull Off  (b) Bend (r) Release (v) Vibrato
E|----2--2----0------5--5----0--0--0-------
B|----3--3----2------3--3----2--3--2-------
G|----4--4----2------4--4----2--2--2-------
D|----5--5----2------5--5----2--2--2-------
A|-----------------------------------------
E|-----------------------------------------



E|----2--2----0------5--5------3------------
B|----3--3----2------3--3------3------------
G|----4--4----2------4--4------0------------
D|----5--5----2------5--5------0------------
A|------------------------------------------
E|------------------------------------------
http://www.guitartabcreator.com
Guitar Tab Creator is intended to store guitar tab created through the tool. It currently does not support in-line text editing. Any text you place in here will be lost. If you need to comment on your tab, please use the "Tab Notes" section located below.