Radiohead - Reckoner

(/) Slide Up  (\) Slide Down  (h) Hammer On  (p) Pull Off  (b) Bend (r) Release (v) Vibrato


E|---------------------------------------------------------------------------------------------
B|---5---5---5---5---5---8---8---8---8---7---7---7---7---7---7---5---5---5---5---8---8---8-----
G|---------------------------------------------------------------------------------------------
D|---------------------------------------------------------------------------------------------
A|-3---3---3---3---3---7---7---7---7---7---5---5---5---5---5---3---3---3---3---7---7---7---7---
E|---------------------------------------------------------------------------------------------



E|-----------------------------------------------------------------------------------------------
B|---5---5---5---5---5---8---8---8---8---7---7---7---7---7b7---7---7---5---5---5---5---5---8---8-
G|-----------------------------------------------------------------------------------------------
D|-----------------------------------------------------------------------------------------------
A|-3---3---3---3---3---7---7---7---7---5---5---5---5---5-----5---5---3---3---3---3---3---7---7---
E|-----------------------------------------------------------------------------------------------



E|-------------------------------------------------------------------------
B|---8---8---8---5---5---5---5---5---8---8---8---8---8---7---7---7---7---7-
G|-------------------------------------------------------------------------
D|-------------------------------------------------------------------------
A|-7---7---7---3---3---3---3---3---7---7---7---7---7---5---5---5---5---5---
E|-------------------------------------------------------------------------
http://www.guitartabcreator.com
Guitar Tab Creator is intended to store guitar tab created through the tool. It currently does not support in-line text editing. Any text you place in here will be lost. If you need to comment on your tab, please use the "Tab Notes" section located below.