Paranoid Andriod - 1. Guitar

(/) Slide Up  (\) Slide Down  (h) Hammer On  (p) Pull Off  (b) Bend (r) Release (v) Vibrato


E|------------------------------------------------------------------------------
B|--15------15-----15------------------15---------------------------------------
G|------15----b15------15--14--12--12------12-----------------------------------
D|------------------------------------------------------------------------------
A|------------------------------------------------------------------------------
E|------------------------------------------------------------------------------



E|-----------------------------------
B|--3-----3-----3--------------3--4--
G|-----3-----3-----3--2--0--0--------
D|-----------------------------------
A|-----------------------------------
E|-----------------------------------
http://www.guitartabcreator.com
Guitar Tab Creator is intended to store guitar tab created through the tool. It currently does not support in-line text editing. Any text you place in here will be lost. If you need to comment on your tab, please use the "Tab Notes" section located below.